Arquivado

Este tópico está arquivado por ser já antigo. Para falar sobre o mesmo assunto, por favor cria um novo tópico.

SymphnyX

Uma malha de SymphonyX.... whatelse?! ;-)



Posts Recomendados:

SymphnyX    0

Boas,

Vou deixar-vos aqui uma das minhas malhas preferidas do Michael Romeo, podem encontrá-la na música The Edge Of Forever. Não é muito díficil mas como de costume aconselho a que primeiro toquem-na devagar para ficarem com ela bem sabida e só depois tocarem à velocidade original ou que quiserem.

Fica aqui o link. Está em formato powertab.

SymphonyX Lick

"divertem-se" :mrgreen:

Partilhar este post


Link para o post
Partilhar nas redes sociais
SymphnyX    0

Greendevil: your wish is an order mate!




|-------------------------|----------13h17p13-------------------------|



|-------------------------|-------15----------15----------------------|



|-------------14----15-14-|-17-14----------------14-------------------|



|-15-14-17-15----17-------|-------------------------15----------14-15-|



|-------------------------|----------------------------17-16-17-------|



|-------------------------|-------------------------------------------|











|-------------------------------------------------|



|----------------------15-17-18-17-15----15-17-18-|



|----14-15-17-15-17-18----------------18----------|



|-17----------------------------------------------|



|-------------------------------------------------|



|-------------------------------------------------|











|-------------------15h18p17p15h17--|



|-17-15----15-17-18-----------------|



|-------18--------------------------|



|-----------------------------------|



|-----------------------------------|



|-----------------------------------|











|----17----19----20----17-|----19----20-20----|



|-17----17----17----16----|-16----16----16----|



|-------------------------|-------------------|



|-------------------------|-------------------|



|-------------------------|-------------------|



|-------------------------|-------------------|







diverte-te, esta pequena obra de arte soa mesmo bem... pelo menos eu gosto muito! :wink: :twisted:

Partilhar este post


Link para o post
Partilhar nas redes sociais
Jeremy    0

Hey Symphny X... não tens nada do último cd? Como por exemplo a intro da primeira música? Aquilo tá demais....

Partilhar este post


Link para o post
Partilhar nas redes sociais
guitarz    5

Realmente o ultimo album de Symphony X está demais.

Muito bom mesmo !!!!

Felizmente vamos ter a sorte de os poder ir ver ao Hard Club em abril.

Só é pena que não sejam a banda principal.

Comprem o album que vale mesmo a pena !!!!

Cya

guitarz

Partilhar este post


Link para o post
Partilhar nas redes sociais
RacerX    0

da banda td e' o q gosto menos :P e' uma beka kuadrado (mas isto e' a minha opiniao e nem bateria toko), strat ao vivo e' mt fixe!! o baixista e o teclista partem td :)

Partilhar este post


Link para o post
Partilhar nas redes sociais