Arquivado

Este tópico está arquivado por ser já antigo. Para falar sobre o mesmo assunto, por favor cria um novo tópico.

SymphnyX

Uma malha de SymphonyX.... whatelse?! ;-)



Posts Recomendados:

Jeremy    0

Ya mas power não é comigo... não consigo lidar com as vozes... a de Symphony X até nem é má de todo.

Partilhar este post


Link para o post
Partilhar nas redes sociais
Perlux    0

RacerX: reparei nisso, acho o Jörg porreiro mas é um baterista nada de especial... é sempre a mesma coisa. Eu gosto mesmo é do teclista. O homem toca.

Edit: Tinha o nome do baterista mal escrito....

Partilhar este post


Link para o post
Partilhar nas redes sociais
SymphnyX    0

Jeremy: heya, experimenta lá isto:




||----------------------------------------||



||o--------------------------------------o||



||--13-12-10-12-0-0-0-0-10-8-7-0-8-7-5-0--||



||----------------------------------------||



||o--------------------------------------o||



||----------------------------------------||











||------------------------------------||



||o----------------------------------o||



||--7-5-4-0-1-0-1-0-0-0-1-0-1-4-1-0---||



||------------------------------------||



||o----------------------------------o||



||------------------------------------||











|--------------------------------------|



|-13-12-10-12-0-0-0-0-10-8-7-0-8-7-5-0-|



|--------------------------------------|



|--------------------------------------|



|--------------------------------------|











|-----------------------------------------|



|-----------------------------------------|



|-13-12-10-12-0-0-0-0-10-8-7-0-12-10-8-0--|



|-----------------------------------------|



|-----------------------------------------|



|-----------------------------------------|











|-------------------16-15-13----------------------|



|-15-13-12-------------------16-15-13-15-13-12----|



|----------13-12-10----------------------------13-|



|-------------------------------------------------|



|-------------------------------------------------|



|-------------------------------------------------|











|--------------------------------------------------|



|--------------------------------------------------|



|-12-10-13-12-10----------------------------10-12--|



|----------------13-12-10----------10-12-13--------|



|-------------------------14-10-14-----------------|



|--------------------------------------------------|











|------------------------------------------------|



|------------------------------------------------|



|-13-12-10-12-0-0-0-0-8-7-5-0-10-8-7-0-12-10-8-0-|



|------------------------------------------------|



|------------------------------------------------|



|------------------------------------------------|











|---------------------------------------|



|---------------------15-13-12----------|



|-13-12-10-12-0-0-0-0----------13-12-10-|



|---------------------------------------|



|---------------------------------------|



|---------------------------------------|











|------------------------------------------------|



|------------------------------------------------|



|-13-12-10-12-0-0-0-0-8-7-5-0-10-8-7-0-12-10-8-0-|



|------------------------------------------------|



|------------------------------------------------|



|------------------------------------------------|











|---------------------16-15-13----------------------------|



|------------------------------16-15-13-15-13-12----------|



|-13-12-10-12-0-0-0-0----------------------------13-12-10-|



|---------------------------------------------------------|



|---------------------------------------------------------|



|---------------------------------------------------------|











|------------------------------------------------|



|------------------------------------------------|



|-13-12-10-12-0-0-0-0-8-7-5-0-10-8-7-0-12-10-8-0-|



|------------------------------------------------|



|------------------------------------------------|



|------------------------------------------------|











|----------------------------------------|



|---------------------15-13-12-----------|



|-13-12-10-12-0-0-0-0----------13-12-10--|



|----------------------------------------|



|----------------------------------------|



|----------------------------------------|











|------------------------------------------------|



|------------------------------------------------|



|-13-12-10-12-0-0-0-0-8-7-5-0-10-8-7-0-12-10-8-0-|



|------------------------------------------------|



|------------------------------------------------|



|------------------------------------------------|



guitarra um tom abaixo

Partilhar este post


Link para o post
Partilhar nas redes sociais